乌克丽丽 最后的生还者

乌克丽丽 最后的生还者

Tuning : GBEA
 
(/) Slide Up  (\) Slide Down  (h) Hammer On
(p) Pull Off  (b) Bend (r) Release (v) Vibrato
 
Solo
A|--------------------------------------|--------------------------------------|--
E|--------0--------0--------0--------0--|--------0--------0--------0--------0--|--
B|-----0--------0--------0--------0-----|-----0--------0--------0--------0-----|--
G|--0--------0--------0--------0--------|--0--------0--------0--------0--------|--
 
 
A|--------------------------------------|--------------------------------------|--
E|--------0--------0--------0--------0--|--------0--------0--------0--------0--|--
B|-----0--------0--------0--------0-----|-----0--------0--------0--------0-----|--
G|--0--------0--------0--------0--------|--0--------0--------0--------0--------|--
 
 
A|--------------------0-----------------|--------------------------------------|--
E|--3--------0-----------------2--------|--3--------3--------3--------3--------|--
B|--------0--------0--------0--------0--|--------0--------0--------0--------0--|--
G|-----0--------0--------0--------0-----|-----0--------0--------0--------0-----|--
 
 
 
A|--------------------0-----------------|--0h2--------2--------2--------2--------|--
E|--3--------0-----------------2--------|----------------------------------------|--
B|--------0--------0--------0--------0--|----------0--------0--------0--------0--|--
G|-----0--------0--------0--------0-----|-------0--------0--------0--------0-----|--
 
 
 
A|--------------------0-----------------|--------------------------------------|--
E|--3--------0-----------------2--------|--3--------3--------3--------3--------|--
B|--------0--------0--------0--------0--|--------0--------0--------0--------0--|--
G|-----0--------0--------0--------0-----|-----0--------0--------0--------0-----|--
 
 
A|--1--------0------------------------------|--------------------------------------|
E|--------0--------0--3h5h3-----3--0--------|--0--------0--------0--------0--------|
B|---------------------------0--------0--3--|--------0--------0--------0--------0--|
G|-----0--------0---------------------------|-----0--------0--------0--------0-----|
 
 
 
A|--------------------------------------|--5--------5--------5--------5--------|--
E|--0--------0--------0--------0--------|--------0--------0-----------------0--|--
B|--------0--------0--------0--------0--|--------------------------0-----------|--
G|-----0--------0--------0--------0-----|-----0--------0--------0--------0-----|--
 
 
 
A|--4--------4--------4--------4--------|--3--------3--------3--------3--------|--
E|--------0--------0--------0--------0--|--------0--------0--------0--------0--|--
B|--------------------------------------|--------------------------------------|--
G|-----2--------2--------2--------2-----|-----0--------0--------0--------0-----|--
 
 
A|--2--------2--------2--------2--------|--5--------5--------5--------5/7--------
E|--------0--------0--------0--------0--|--------0--------0--------0----------0--
B|--------------------------------------|----------------------------------------
G|-----0--------0--------0--------0-----|-----0--------0--------0----------0-----
 
 
 
A|--4--------4--------4--------4--------|--3--------3--------3--------3--------|--
E|--------0--------0--------0--------0--|--------0--------0--------0--------0--|--
B|--------------------------------------|--------------------------------------|--
G|-----2--------2--------2--------2-----|-----0--------0--------0--------0-----|--
 
 
 
A|--2--------2--------2--------2--------|--0--------0--------0--------0--------|--
E|--------0--------0--------0--------0--|--------2--------2--------2--------2--|--
B|--------------------------------------|-----3--------3--------3--------3-----|--
G|-----0--------0--------0--------0-----|--------------------------------------|--
 
 
 
A|--0--------0--------0--------0--------|--------------------------------------|--
E|--------0--------0--------0--------0--|--3--------2--------0-----------0-----|--
B|-----2--------2--------2--------2-----|--------0--------0--------0--3--------|--
G|--------------------------------------|-----0--------0--------0-----------0--|--
 
 
 
A|--------------------------------------|--2-----------------------------------|--
E|--2--------2--------2--------2--------|--2-----------------------------------|--
B|--------0--------0--------0--------0--|--0-----------------------------------|--
G|-----0--------0--------0--------0-----|--0-----------------------------------|--
 
 
 
A|--------------------0-----------------|--7-----------------------------------|--
E|--3--------0-----------------2--------|--0-----------------------------------|--
B|--------0--------0--------0--------0--|--0-----------------------------------|--
G|-----0--------0--------0--------0-----|--0-----------------------------------|--
Avatar
Marco Huang
Yet Another Engineer
comments powered by Disqus